On My Lobotomobile (tab & chords)

Riff:

on acoustic:

    G  G  G  G C

E|--3--3--3--3--0--------------------------
B|--3--3--3--3--1--0----1-0---1-0-------
G|--0--0--0--0--0----0------0------------
D|--0--0--0--0--2-------------------------
A|--2--2--2--2--3-------------------------
E|--3--3--3--3--0-------------------------

on electric:

    G  G  G  G C

E|--3--3--3--3-------------------------------
B|--3--3--3--3---5-3-0--5-3-0--5-3-0----
G|--0--0--0--0---5-4-0--5-4-0--5-4-0----
D|--0--0--0--0---5-5-0--5-5-0--5-5-0----
A|---------------------------------------------
E|---------------------------------------------


             G
There's a man inside my head
               Em
and I know he wants me dead
               Am
gotta fight him everyday
                F                    D
'cause I hate the things he says
                G
but today I changed my mind
                   Em
'cause we're two, two of a kind
               Am
gonna take him on a date
                 F                  D
'cause I love the things I hate

D
so come on come on come on come on

                 G
and take a ride
on my lobotomobile
                  Em
and take a ride
on my lobotomobile
                  C
and take a ride
on my lobotomobile
                 D
it's all right it's all right it's all right

                 G
and take a ride
on my lobotomobile
                  Em
and take a ride
on my lobotomobile
                 Am
and take a ride
on my lobotomobile
                  F
and take a ride
                D
on my lobotomobile

(Riff)

               G
everytime I feel alone
                 Em
'cause my second half is gone
                 Am
it's not hard to ease the pain
                 F                   D
'cause I know he feels the same
                G
so we managed to surive
                  Em
your great psycho-genocide
                F
we got married in LA
                 D
and we're livin' on our way
D
so come on come on come on come on

(chorus)

Bridge:

Instrumental: Em / G / Em / G

C                                  D
Riding on imaginary roads
C                                               D
throwing up and always feeling low
C                                                D
going through our solitary road
C                                              D
ironing straitjackets for the show
D
so come on come on come on come on

(Chorus)

Riff